Forum de Shred-Art

Apprentissage de la guitare
Partagez | 
 

 rapidité médiator

Voir le sujet précédent Voir le sujet suivant Aller en bas 
AuteurMessage
zorglub
Croche
Croche


Nombre de messages : 4
Date d'inscription : 14/09/2008

MessageSujet: rapidité médiator   Mar 16 Sep - 10:15

quelle technique employer pour développer la rapidité du médiator?
(angle d'attaque, tenue du médiator, exercices...). Il me semble qu'entre une vitesse moyenne et une vitesse très rapide il y ait unmoment où mon médiator est plus difficilement contrôlable???[b]
Revenir en haut Aller en bas
Voir le profil de l'utilisateur
Adminischtroumpf
Admin
avatar

Nombre de messages : 24
Date d'inscription : 01/04/2007

MessageSujet: Re: rapidité médiator   Mer 17 Sep - 22:30

Bonjour,

je vous envoie un lien vers un site qui explique la façon de tenir le médiator.

Il faut également trouver le médiator qui vous convient et donc en essayer plusieurs. Je suis resté sur le Dunlop Jazz III qui est tout petit mais qui me donne le sentiment d'être plus précis. Il faut en essayer plusieurs pour trouver le bon.

http://www.guitare-live.com/cours-tenir-son-mediator.html

Pour ma part ce qui m'a vraiment fait progresser au niveau des aller-retour, c'est la vidéo ROCK DISCIPLINE de John Petrucci, guitariste de Dream Theater.

Exemples d'exercices (attention tout est joué en aller-retour même lors des sauts de cordes c'est à dire lors du passage d'une corde à l'autre):

La gamme chromatique (1/2 ton entre chaque note)


-------------------------------------------------------------
-------------------------------------------------------------
---------------------------------------------------5-6-7-8-
---------------------5-6-7-8------------5-6-7-8-----------
-----------5-6-7-8------------5-6-7-8---------------------
-5-6-7-8----------------------------------------------------

--------------------------------------------------5-6-7-8---
---------------------5-6-7-8-----------5-6-7-8------------
-----------5-6-7-8-----------5-6-7-8----------------------
-5-6-7-8----------------------------------------------------
--------------------------------------------------------------
--------------------------------------------------------------

Il est important de travailler les gammes en montant et en descendant.

Exercice avec sauts de corde

--------------------------------5------9--------------------------------
----------------------5-------------------------5-----------------------
--------------6------------6---------------6------------6--------------
------7-----------7---------------------------------7------------7-----
----------7--------------------------------------------------7----------
-5---------------------------------------------------------------------5


-1---3---3---2---3---1---2---1------4---2---1---3---2---3---3----1 (doigts)

vidéo de cet exercice:

http://fr.youtube.com/watch?v=tPE5courrwY

Exercice sur gamme majeure de DO

-------------------------------------------------------------------------------5---5-7-5-7-8-
---------------------------------------------------------5---5-6-5-6-8-6-8----8-------------
-----------------------------------4---4-5-4-5-7-5-7----7-----------------------------------
-------------3---3-5-3-5-7-5-7----7---------------------------------------------------------
-3-5-7-5-7----7------------------------------------------------------------------------------
------------------------------------------------------------------------------------------------
Revenir en haut Aller en bas
Voir le profil de l'utilisateur http://guitarshredding.site.voila.fr
zorglub
Croche
Croche


Nombre de messages : 4
Date d'inscription : 14/09/2008

MessageSujet: rapidité mediator   Jeu 18 Sep - 11:01

merci pour cette réponse très détaillée et très documentée.
Il me manque un petit élément c'est celui du problème de la main droite qui devient un peu incontrolable entre disons, en gros, 110 et 140 et qui redevient plus stable après. Y a-t-il une solution, ou suis-je le seul dans ce cas?
Revenir en haut Aller en bas
Voir le profil de l'utilisateur
Satchy
Invité



MessageSujet: Re: rapidité médiator   Mer 24 Sep - 12:14

Si ta main droite est "incontrôlable", baisse la cadence de ton métronome, c'est que tu n'es pas prêt à jouer à cette vitesse. Il faut augmenter progressivement le rythme. Si tu essayes de jouer trop vite au début, celà va se sentir au niveau de la propreté de ton jeu.

Mais j'avoue, parfois, je m'amuse à augmenter volontairement la cadence de mon métronome afin que celà devienne quasi voir même impossible pour moi et après je redescends la cadence. J'ai l'impression alors que c'est beaucoup plus facile. Je ne sais pas si tu vois ce que je veux dire.
Revenir en haut Aller en bas
zorglub
Croche
Croche


Nombre de messages : 4
Date d'inscription : 14/09/2008

MessageSujet: rapidité du médiator   Mer 24 Sep - 18:57

Je vois ce que tu veux dire mais c'est toujours entre presque vite et très vite qu'il y a un problème. Avant et après ça va. Curieux non?
Revenir en haut Aller en bas
Voir le profil de l'utilisateur
Contenu sponsorisé




MessageSujet: Re: rapidité médiator   

Revenir en haut Aller en bas
 
rapidité médiator
Voir le sujet précédent Voir le sujet suivant Revenir en haut 
Page 1 sur 1
 Sujets similaires
-
» Côté médiator
» epaisseur des mediators ou onglets sur le son
» [Interview] Tokio Hotel réponds aux questions d'NRJ.de
» Blackmore is God! (telle est la question)
» MEDIATOR PARFITT ?

Permission de ce forum:Vous ne pouvez pas répondre aux sujets dans ce forum
Forum de Shred-Art :: Discussions générales :: Le puits-
Sauter vers: